Welcome
Login / Register

JOHNNY B. GOODE - Chuck Berry - Guitar Lesson

Thanks! Share it with your friends!

URL

You disliked this video. Thanks for the feedback!

Sorry, only registred users can create playlists.
URL


Added by Admin in Education
11 Views
Download

Description

That'l Be the Day - Buddy Holly - Guitar Lesson: https://youtu.be/trBELy0e6zk

My guitar lesson website: http://www.bobsguitarlessons.yolasite.com

**NEW TABS FOR THIS LESSON: http://justpaste.it/JohnnyBGoode2
How to play Johnny B. Goode by Chuck Berry, the great rock and roll song from he 1950's. Guitar lesson with step by step method with easy to follow tabs in the video.

TABS for this lesson available on my guitar lesson website: http://www.bobsguitarlessons.yolasite.com
Facebook: https://www.facebook.com/BobbyCrispyGuitarLessons

E---------------------5-6--6--6----5-6--6--6----5-6--6--6----
B-----------6--8----5-6--6--6----5-6--6--6----5-6--6--6----
G----6-7------------------------------------------------------------
D---------------------------------------------------------------------
A---------------------------------------------------------------------
E---------------------------------------------------------------------

E------------------------------------------------------------------------------------------------
B----9--8--6----------------------------------------------6--8--6---------------------------
G-----------------6-7-------7-7-7--7-7-7--7-7----7--7--7--7--7--7----5--3----------
D------------------------8---8-8-8--8-8-8--8-8----8-----------------8------------5--3--
A------------------------------------------------------------------------------------------------
E------------------------------------------------------------------------------------------------

E---------------------------------------------------------------
B-----------6---------6----------6---------6-----------6----
G----8(B)-----8(B)------8(B)-----8(B)-----8(B)--------
D---------------------------------------------------------------
A---------------------------------------------------------------
E---------------------------------------------------------------

E--------------6--------------8--6-----------------------------6--------------------------------------------
B-----------------9--8--6---------9--8--6------------------6---9--8--6--------6---------6-------------
G----8(B)-------------------------------------8----6--7--7----------------8(B)----8(B)----8-6-------
D-----------------------------------------------------------------------------------------------------------7-
A--------------------------------------------------------------------------------------------------------------
E--------------------------------------------------------------------------------------------------------------

E---------------------------------------
B---------------------------------------
G---------------------------------------
D---------------------------------------
A----8--8--10-10--8--8--10-10--
E----6--6---6--6---6--6---6--6----

E---------------------------------------
B---------------------------------------
G---------------------------------------
D----8--8--10-10--8--8--10-10--
A----6--6---6--6---6--6---6--6----
E---------------------------------------

E---------------------------------------------
B---------------------------------------------
G---------------------------------------------
D---10-10--12--12--10-10---12-12--
A----8---8----8---8----8---8----8---8---
E---------------------------------------------

E----4---4---4---4---6-----
B----6---6---6---6---6-----
G------------------------------
D------------------------------
A------------------------------
E------------------------------

E----------------------------------------
B-----------6--6-----------6-----------
G----8(B)---------8(B)------8(B)---
D----------------------------------------
A----------------------------------------
E----------------------------------------

E----------------------------------------------------------------
B------------6--6---------6----------6---------6---------6---
G----8(B)---------8(B)-----8(B)------8(B)----8(B)-------
D-----------------------------------------------------------------
A-----------------------------------------------------------------
E-----------------------------------------------------------------

E----6--6--6--6--6----------------
B----6--6--6--6--6----------------
G----------------------8--6-7------
D---------------------------------8--
A-------------------------------------
E-------------------------------------

E----6---------------
B----6---------------
G--------8--7-------
D----------------8---
A---------------------
E---------------------

E----6---6---6---6---
B----6---6---6---6---
G-----------------------
D-----------------------
A-----------------------
E-----------------------

E---------------------------------------------------
B---------------------------------------------------
G----3--3--3----3--3--3----3--3--3-------3--
D----3--3--3----3--3--3----3--3--3-------3--
A---------------------------------------------------
E---------------------------------------------------

Post your comment

Sign in or sign up to post comments.

Comments

Be the first to comment
RSS